999
created by FILOU-NC
0
SECTION
2
HEADER
9
$ACADVER
1
AC1009
9
$INSBASE
10
0.0
20
0.0
30
0.0
9
$EXTMIN
10
0.0
20
0.0
9
$EXTMAX
10
1000.0
20
1000.0
0
ENDSEC
  0
SECTION
  2
TABLES
  0
TABLE
  2
LTYPE
 70
     2
  0
LTYPE
  2
FASTFEED
 70
     0
  3
Fastfeed __ __ __ __ __ __ __ __ __ __ __ __ __
 72
    65
 73
     2
 40
9.525
 49
6.35
 49
-3.175
  0
ENDTAB
  0
ENDSEC
  0
SECTION
  2
ENTITIES
  0
ARC
  8
1
 10
0
 20
0
 30
0
 40
11
 50
230.215908570454
 51
309.784091429546
 62
 0 
  0
ARC
  8
1
 10
0
 20
0
 30
0
 40
13.2
 50
230.215908570454
 51
309.784091429546
 62
 0 
  0
ARC
  8
1
 10
0
 20
0
 30
0
 40
13.2
 50
110.215908570454
 51
189.784091429546
 62
 0 
  0
ARC
  8
1
 10
0
 20
0
 30
0
 40
11
 50
110.215908570454
 51
189.784091429546
 62
 0 
  0
ARC
  8
1
 10
0
 20
0
 30
0
 40
11
 50
350.215908570454
 51
429.784091429546
 62
 0 
  0
ARC
  8
1
 10
0
 20
0
 30
0
 40
13.2
 50
350.215908570454
 51
429.784091429546
 62
 0 
  0
ARC
  8
1
 10
0
 20
0
 30
0
 40
17.5
 50
93.604
 51
446.396
 62
 0 
  0
ARC
  8
1
 10
0
 20
0
 30
0
 40
20
 50
93.153
 51
446.847
 62
 0 
  0
ARC
  8
1
 10
0
 20
0
 30
0
 40
21
 50
93.0025816298811
 51
446.997418370119
 62
 0 
  0
ARC
  8
1
 10
0
 20
0
 30
0
 40
15
 50
94.20546560016
 51
445.79453439984
 62
 0 
  0
CIRCLE
  8
1
 10
6.06217782649107
 20
-3.5
 30
0
 40
1.3
 62
 0 
  0
CIRCLE
  8
1
 10
-6.06217782649107
 20
-3.5
 30
0
 40
1.3
 62
 0 
  0
CIRCLE
  8
1
 10
0
 20
7
 30
0
 40
1.3
 62
 0 
  0
CIRCLE
  8
1
 10
0
 20
0
 30
0
 40
5
 62
 0 
  0
ARC
  8
1
 10
-7.74274590235112
 20
-9.29838082096151
 30
0
 40
1.1
 50
50.216
 51
230.216
 62
 0 
  0
ARC
  8
1
 10
7.74274590235111
 20
-9.29838082096152
 30
0
 40
1.1
 50
309.784
 51
489.784
 62
 0 
  0
ARC
  8
1
 10
-11.9240069561902
 20
-2.05622423600317
 30
0
 40
1.1
 50
189.784
 51
369.784
 62
 0 
  0
ARC
  8
1
 10
-4.18126105383912
 20
11.3546050569647
 30
0
 40
1.1
 50
290.216
 51
470.216
 62
 0 
  0
ARC
  8
1
 10
11.9240069561902
 20
-2.05622423600317
 30
0
 40
1.10000000000001
 50
170.216
 51
350.216
 62
 0 
  0
ARC
  8
1
 10
4.18126105383912
 20
11.3546050569647
 30
0
 40
1.1
 50
69.784
 51
249.784
 62
 0 
  0
ENDSEC
  0
EOF
